Cambiar tamaño de la fuente   Imprimir vista
 

Escalas

Aprendemos juntos a tocar

Re: Escalas

Notapor agustin10 » Jue May 26, 2011 4:22 pm

Si Juan, éste foro está lleno de bicharraquines ocultos :lol: :lol: :lol: :lol:
¨El es el Jefe, es el dios de la guitarra !!!!¨
Avatar de Usuario
agustin10
Vecindona moderada
Vecindona moderada
 
Mensajes: 767
Registrado: Sab Sep 11, 2010 11:03 pm
Ubicación: Argentina

Re: Escalas

Notapor Juan Cano » Vie May 27, 2011 11:37 am

MIguel escribió:yo ejercicios como tal no sé ninguno específico. Lo que sí hago para estudiar el picado (incluyendo con cejilla), es tocar la pieza Cañaveral de Gerardo Nuñez. Lo voy haciendo de menos a más velocidad. Aparte de esudiar el picado, tocas un pieza bonita y siempre es más agradable que un ejercicio sin más. Yo, después de tocarla varias veces seguidas (en bucle), termino con la mano bastante cansada por lo que supongo que sí que se trabaja la mano.

por si no conoces la obra: (esta desfasado y ademas es playback pero bueno te sirve para oirla)



P.D. No tengo las partituras, la saqué de oido. Si puedo, lo intento grabar.



¡¡¡¡Pues vaya sorpresa!!!!. Buscando algún vídeo en youtube en que se viera mejor este tema, ¿a que no sabeis a quien me he encontrado tocandolo? (bueno, el que acompaña al que lo toca). A ver si sabéis quién es. Está muy jovencito ahí, y como eran sus principios flamencos, su forma de tocar, rasgueando en el mástil (literalmente), no es de lo más ortodoxo, jajaja :lol: (me va a matar cuando me vea, por poner ese vídeo, jajaja) :lol:
Venga, un premio sorpresa para el que sepa quien es:

http://www.youtube.com/watch?v=5fyOitT9KFs
Bienaventurados los que lo tienen claro, porque de ellos será el reino de los ciegos (J.M. Serrat)
Avatar de Usuario
Juan Cano
Vecindona tímida
Vecindona tímida
 
Mensajes: 460
Registrado: Mar Mar 23, 2010 11:25 pm
Ubicación: La Algaba (Sevilla)(España)

Re: Escalas

Notapor jaime a. guerrero » Vie May 27, 2011 12:56 pm

¿El ñero Choquese 1400 y tantos?

^^DD
jaime a. guerrero
Vecindona profesioná
Vecindona profesioná
 
Mensajes: 1287
Registrado: Lun Mar 22, 2010 3:49 pm
Ubicación: SaltiYork, México

Re: Escalas

Notapor Juan Cano » Vie May 27, 2011 1:32 pm

jaime a. guerrero escribió:¿El ñero Choquese 1400 y tantos?

^^DD


Premioooooo. El premio lo recibirá Ud. por mensajería urgente. Por favor, no salga Ud. de su domicilio en las próximas 72 horas, para no perderse la entrega del premio. ^^))
Bienaventurados los que lo tienen claro, porque de ellos será el reino de los ciegos (J.M. Serrat)
Avatar de Usuario
Juan Cano
Vecindona tímida
Vecindona tímida
 
Mensajes: 460
Registrado: Mar Mar 23, 2010 11:25 pm
Ubicación: La Algaba (Sevilla)(España)

Re: Escalas

Notapor Arturo » Vie Jul 01, 2011 1:00 am

No veas donde rasgueaba el Yoque jaja una mijilla más y rasguea "más pa llá" de la mano izquierda xDD

Esa obra es mu buena para estudiar.... habrá que plantearse sacarla, aunque sólo sea para machacarse en los picados!
Avatar de Usuario
Arturo
Vecindona moderada
Vecindona moderada
 
Mensajes: 670
Registrado: Dom Mar 21, 2010 8:19 pm

Re: Escalas

Notapor yoquese1425 » Sab Jul 02, 2011 1:43 pm

Jaja que bueno... estaba yo para hacer un video didactico de rasgeos jajaja... no veas lo que me costo hacer el rasgeo abanico... se me enganchaba el pulgar en las 6 cuerdas y en el golpeador al mismo tiempo, y a veces con el labio inferior :lol:

Segun mi profe, lo mas dificil de esa obra es el alzapua que mete Gerardo en la 2da cuerda !!

Algun dia me la estudiaré yo tambien, me encanta
La música es el eco de lo invisible
Avatar de Usuario
yoquese1425
Vecindona
Vecindona
 
Mensajes: 175
Registrado: Lun Mar 22, 2010 3:18 pm

Re: Escalas

Notapor Juan Cano » Lun Dic 12, 2011 4:57 pm

carlosaruferodriguez escribió: teoria y sistema de la guitarra flamenca de manolo sanlucar ,


¿Este es el libro que decía el Maestro Sanlúcar que estaba preparando? ¿Ya ha salido? (yo es que una vez leí que estaba preparando algo así como una gran enciclopedia flamenca que recogería todos los palos y también estaría encaminada a la técnica flamenca, y a la armonía empleada en el flamenco. ¿puede ser este el libro?.
Bienaventurados los que lo tienen claro, porque de ellos será el reino de los ciegos (J.M. Serrat)
Avatar de Usuario
Juan Cano
Vecindona tímida
Vecindona tímida
 
Mensajes: 460
Registrado: Mar Mar 23, 2010 11:25 pm
Ubicación: La Algaba (Sevilla)(España)

Re: Escalasdemi mayor

Notapor salvadorsantana » Dom May 20, 2012 3:19 pm

Don Fernando escribió:Buscando por la cache de google he podido rescatar esto a raiz de un comentario que he leido por ahi. Espero que os sea util.
Esteban de Argentina escribió:Estimados Compañeros de Foro:

En este sitio tendrán cabida todas las escalas que los foreros conozcan y quieran compartir con el resto. Existen diversas fórmulas para explicar las escalas, pero la intención es que cualquier persona, sin que se requiera conocimientos de música, pueda interpretar estas escalas, para lo cual lo ideal sería no detenernos sólo en la mera transcripción de las mismas con su correspondiente tablatura, sino enriquecer con alguna explicación sobre el uso que se puede hacer de ellas y todo lo que esté en la medida de las posibilidades que ofrece este medio.

¿Para qué nos puede servir conocer estas escalas?: Pues para muchas cosas: Para improvisar en un determinado tono dentro de la escala en cuestión; para componer fusionando estas escalas con las típicas flamencas; para practicar, por ejemplo, picados, utilizando varias escalas diferentes, etc...Y por supuesto, para sumar un granito de arena en nuestra formación y cultura musical.

Cada escala que se suba deberá indicar el tono en que esté construida ,las notas que la componen y toda la información posible sobre si es mayor, menor, modal , etc. Por supuesto, todo aquel que quiera aportar una escala y desconozca los elementos técnico-musicales que la compongan, puede tranquilamente exponerla para desentrañarla entre todos.

Por supuesto que resulta una tarea más que complicada explicar y transcribir una por una todas las escalas que se conocen habitualmente, por lo que se puede usar una u otra para explicarla y luego el que necesite transponerla, tan solo tiene que hacer la trasposición de las notas, de la forma que todos hemos hecho alguna que otra vez para tocar las mismas canciones en diferentes tonos (aparte de subir o bajar la cejilla, claro). De todas formas, si alguien necesita hacer dicha trasposición a otro tono diferente, y no sabe cómo, seguro que solicitándolo, siempre habrá alguien en el foro que le indicará las notas que la componen.

Para inaugurar el post, vamos a comenzar con las “Escalas Modales”, ya que son las primeras escalas que se tiene noticia en la música occidental, y además siguen teniendo plena vigencia en diferentes géneros como el jazz y el flamenco ( nuestras queridas escalas flamencas “por arriba” y “por medio” no son otra cosa que escalas modales frigias de Mi y La respectivamente) . Primeramente expondremos una introducción sobre el tema de la Música Modal para entrar en tema y luego explicaremos las escalas propiamente dichas. A quién no le interesen estas cuestiones teóricas , bien puede saltar este punto e ir directamente a la trascripción gráfica de las escalas que se encuentra a partir del 3er mensaje del post.




INTRODUCCIÓN : LA MUSICA “MODAL” Y LA MUSICA “TONAL”

: En la música occidental podemos afirmar que existen dos grandes “sistemas” dentro de la armonía y la música en general., que se abarcan mutuamente. A estos dos sistemas se les ha dado en llamar “ SISTEMA MODAL” y “SISTEMA TONAL” . (Por lo pronto, queda al margen de este punto todo lo referido al atonalismo , dodecafonismo y las corrientes musicales que carecen de la idea de tonalidad y modalidad, sin prejuicio de ser tratados con posterioridad.).

El más antiguo de ambos es el Sistema Modal, que se refiere a los llamados “Modos Griegos” , o a lo que en la Edad Media cristiana se denominó “Modos Gregorianos” .

Los Modos Griegos, son escalas que surgieron en la Grecia del período Clásico ( alrededor del siglo. V a. c.) y se consolidaron y difundieron su uso durante el período Helenístico ( S. III a .c. , aprox.) . Fueron tomadas por la cultura romana y posteriormente se incorporaron al rito cristiano de la temprana Edad Media.

Todo este sistema de escalas modales reinó durante un par de miles de años en la música occidental y cercano oriente, tanto en el ámbito religioso como en las danzas folklóricas paganas (*) ; hasta el Renacimiento ( 1400 aprox.) , donde comienzan a surgir los primeros atisbos de lo que posteriormente quedaría conformado como el “SISTEMA TONAL”, imperante en el barroco, clasicismo, romanticismo, hasta nuestros días.
El surgimiento del SISTEMA TONAL dio origen a toda la teoría de la Armonía de nuestros días y enriqueció el panorama estético-musical de una manera más que notable.

(* En la actualidad , muchas músicas folklóricas de diversos países conservan el uso del sistema modal, como la música celta, balcánica, incluso en algunos palos del flamenco. ) .

ESCALAS MODALES: EXPLICACIÓN PRACTICA

Las escalas modales, o modos griegos eran usados en la Antigua Grecia como pautas de entonación para cantar los distintos himnos u odas a los dioses ; como estándares melódicos . Es decir que se ponían de acuerdo en la letra a cantar y el Modo musical para entonar., por ejemplo “ vamos a cantar un Himno a Apolo en Modo Dórico”, entonces alguno daba una nota cualquiera como punto de partida y de ahí ya todos entonaban en la correspondiente escala. Como los flamencos actuales dirían “voy a cantar una soleá por arriba con la cejilla al 3” y ya no hay nada mas que agregar, pues el cantaor ya tiene incorporada la escala en la que canta.
Las escalas modales son 7 , y sus nombres derivan de las distintas provincias griegas:
-Escala Jónica
-Escala Dórica
-Escala Frigia
-Escala Lidia
-Escala Mixolidia
-Escala Eólica
-Escala Locria

Se sabe que de estos 7 modos, los más primitivos eran el dórico, el frigio y el lidio. Luego al extenderse el rango de notas de estas 3 escalas primarias surgieron las otras restantes.
Pero nosotros para aprenderlas , no vamos a seguir el desarrollo histórico de las mismas, ya que excedería los límites de esta exposición.

Para explicarlas de una forma más cercana a nuestros conocimientos actuales, vamos a tomar como punto de partida la escala que hoy llamamos Escala Mayor , que todos conocemos bien.
Por ejemplo, la Escala de DO Mayor , que como sabemos , sus notas constitutivas son :
DO-RE-MI-FA.-SOL-LA-SI.

Si de cada una de las notas que conforman esta escala hacemos partir la misma escala ,sin alterar nada , pero desplazando la tónica, nos quedan las 7 escalas modales . Queda el siguiente resultado:

DO – RE-MI-FA-SOL-LA-SI-DO ( Escala de DO Modo Jónico)
RE - MI-FA-SOL-LA-SI-DO-RE ( Escala de RE Modo Dórico)
MI - FA-SOL-LA-SI-DO-RE-MI ( Escala de MI Modo Frigio)
FA - SOL-LA-SI-DO-RE-MI-FA ( Escala de FA Modo Lidio)
SOL- LA-SI-DO-RE-MI.-FA-SOL ( Escala de SOL Modo Mixolidio)
LA - SI –DO-RE-MI-FA-SOL-LA ( Escala de LA Modo Eólico)
SI - DO –RE-MI-FA-SOL-LA-SI ( Escala de SI Modo Locrio)


En resumen, de cada una de las 7 notas de la escala mayor (negritas) sale una nueva escala , que es siempre la misma pero con distinta nota de inicio y final. Estas 7 escalas que surgen son las 7 escalas modales que se cantan hace unos 2.500 años.

En el diapasón de la guitarra, las 7 escalas modales quedarían:

ESCALA DE DO MODO JONICO (o escala de DO Mayor)
Sus notas son DO-RE-MI-FA-SOL-LA-SI-DO

1)---------------------------------------5-7-8-- y desciende por el mismo camino
2)-------------------------------5-6-8----------
3)-----------------------4-5-7------------------
4)--------------3-5-7---------------------------
5)----3-5-7-------------------------------------
6)------------------------------------------------

ESCALA DE RE MODO DORICO
Sus notas son RE-MI-FA-SOL-LA-SI-DO-RE

1)----------------------------------------7-8-10—Y desciende por el mismo camino
2)------------------------------6-8-10------------
3)---------------------5-7-9-----------------------
4)------------5-7-9-------------------------------
5)----5-7-8----------------------------------------
6)--------------------------------------------------

ESCALA DE MI MODO FRIGIO ( es la que los flamencos conocemos como escala de MI POR ARRIBA
Sus notas son MI-FA-SOL-LA-SI-DO-RE-MI

1)-----------------------------------------0----y desciende
2)---------------------------------0-1-3-------
3)---------------------------0-2---------------
4)-------------------0-2-3--------------------
5)-----------0-2-3----------------------------
6)---0-1-3------------------------------------


ESCALA DE FA MODO LIDIO
Sus notas son FA-SOL-LA-SI-DO-RE-MI-FA

1)------------------------------------------------- y desciende
2)-------------------------------------3-5-6-----
3)-----------------------------2-4-5-------------
4)--------------------2-3-5----------------------
5)-----------2-3-5------------------------------
6)---1-3-5---------------------------------------

ESCALA DE SOL MODO MIXOLIDIO
Sus notas son SOL-LA-SI-DO-RE-MI-FA-SOL

1)-------------------------------------------------
2)---------------------------------------5-6-8----y desciende
3)------------------------------4-5-7-------------
4)---------------------3-5-7----------------------
5)------------3-5-7-------------------------------
6)---3-5-7----------------------------------------


ESCALA DE LA MODO EOLICO ( tambien llamada escala de LA Menor ANTIGUA
Sus notas son LA-SI-DO-RE-MI-FA-SOL-LA

1)--------------------------------------------5—y desciende
2)-----------------------------------5-6-8------
3)-----------------------------5-7--------------
4)--------------------5-7-9---------------------
5)-----------5-7-8------------------------------
6)---5-7-8--------------------------------------


ESCALA DE SI MODO LOCRIO
Sus notas son SI-DO-RE-MI-FA-SOL-LA-SI

1)----------------------------------------------7-- y desciende
2)----------------------------------------8-10----
3)-------------------------------7-9-10-----------
4)----------------------7-9-10--------------------
5)------------7-8-10------------------------------
6)---7-8-10---------------------------------------


ESCALAS FLAMENCAS POR ARRIBA Y POR MEDIO ( MODO FRIGIO)

Ahora que conocemos las Escalas Modales, vamos a centrarnos un poco en la Escala Frigia, que es una escala muy usada en el flamenco . Cada vez que decimos que usamos la escala “por medio”, o la escala “por arriba”; estamos hablando de la escala Frigia.
La escala flamenca “por arriba”, es la Escala de MI Frigio; y la escala “por medio” es la escala de LA Frigio. Para complementar el estudio de estas escalas, recomiendo observar el Post “Nuevos Tonos ,Acordes y Afinaciones del Flamenco”, del compañero JuanCano ( quién también colaboró en este) , para armar los acordes que surgen de estas escalas.
Vamos a ver las escalas:


ESCALA FLAMENCA POR ARRIBA ( MI FRIGIO )
Sus notas son MI-FA-SOL-LA-SI-DO-RE-MI

La más usada, en 1ra posición:

1)-------------------------------------------0-1-3-y desciende
2)-----------------------------------0-1-3---------
3)-----------------------------0-2-----------------
4)--------------------0-2-3------------------------
5)-----------0-2-3---------------------------------
6)---0-1-3-----------------------------------------

Otra fórmula,

1)---------------------------------------------8-10-12----y desciende
2)----------------------------------8-10-12---------------
3)------------------------7-9-10---------------------------
4)--------------7-9-10-------------------------------------
5)----7-8-10-----------------------------------------------
6)-----------------------------------------------------------

A continuación , una variante de la primera fórmula pero reemplazando el SOL por un SOL sostenido ( # ), con lo que la escala cobra una sonoridad más oriental , muy habitual en el flamenco. Es el equivalente a la Escala de LA Menor Armónica , que será explicada mas adelante.

ESCALA DE MI FRIGIO CON SOL #
Sus notas son : MI-FA-SOL#-LA-SI-DO-RE-MI

1)--------------------------------------------0-1-4-1-0---------
2)------------------------------------0-1-3--------------3-1-0—y sigue descendiendo
3)------------------------------1-2-------------------------------
4)---------------------0-2-3--------------------------------------
5)------------0-2-3-----------------------------------------------
6)----0-1-4------------------------------------------------------


También se pueden combinar ambas fórmulas, es decir , usando el SOL natural junto con el SOL #, también muy usado en el toque por arriba

ESCALA FLAMENCA POR ARRIBA CON SOL# AÑADIDO ( Escala Base de MI Frigio)
Sus notas son MI-FA-SOL-SOL#-LA-SI-DO-RE-MI
1)----------------------------------------------0-1-3-4-3-1-0----------
2)--------------------------------------0-1-3--------------------3-1-0---y sigue descendiendo
3)------------------------------0-1-2---------------------------------------
4)----------------------0-2-3------------------------------------------------
5)--------------0-2-3--------------------------------------------------------
6)---0-1-3-4-----------------------------------------------------------------


ESCALA FLAMENCA POR MEDIO ( LA FRIGIO)
Sus notas son LA-SIb-DO-RE-MI-FA-SOL-LA

La más usada , en primera posición.

1)-----------------------------------0-1-3-5--------- y desciende igual
2)-----------------------------1-3--------------------
3)---------------------0-2-3--------------------------
4)------------0-2-3-----------------------------------
5)----0-1-3-------------------------------------------
6)------------------------------------------------------

Otra fórmula , en quinta posición:

1)-------------------------------------------5-6-8----- y desciende
2)-----------------------------------5-6-8-------------
3)-----------------------------5-7--------------------
4)---------------------5-7-8---------------------------
5)------------5-7-8------------------------------------
6)----5-6-8--------------------------------------------

ESCALA FLAMENCA POR MEDIO CON DO #

Igual que la primera pero reemplazando el Do natural por el Do #

1)-----------------------------------0-1-3-5------------
2)-----------------------------2-3--------------------
3)--------------------0-2-3----------------------------
4)------------0-2-3------------------------------------
5)---0-1-4---------------------------------------------
6)------------------------------------------------------
salvadorsantana
Charlatana
Charlatana
 
Mensajes: 1
Registrado: Vie May 18, 2012 12:48 pm

Anterior

Volver a Las Clases del Foro

¿Quién está conectado?

Usuarios navegando por este Foro: No hay usuarios registrados visitando el Foro y 0 invitados

cron